ISO-10303-21;
HEADER;
FILE_DESCRIPTION (( 'STEP AP203' ),
    '1' );
FILE_NAME ('End Cap SDR11_001 117 0140 0355.step',
    '2019-12-16T11:41:12',
    ( '' ),
    ( '' ),
    'SwSTEP 2.0',
    'SolidWorks 2019',
    '' );
FILE_SCHEMA (( 'CONFIG_CONTROL_DESIGN' ));
ENDSEC;

DATA;
#1 = CARTESIAN_POINT ( 'NONE',  ( -6.031620511734320254E-16, -313.2147824464692576, -4.925191913238795571 ) ) ;
#2 = CARTESIAN_POINT ( 'NONE',  ( 0.0000000000000000000, 0.0000000000000000000, 0.0000000000000000000 ) ) ;
#3 = CIRCLE ( 'NONE', #176, 145.3000000000000114 ) ;
#4 = CARTESIAN_POINT ( 'NONE',  ( 0.0000000000000000000, 0.0000000000000000000, 0.0000000000000000000 ) ) ;
#5 = DIRECTION ( 'NONE',  ( -0.0000000000000000000, -1.000000000000000000, -0.0000000000000000000 ) ) ;
#6 = CARTESIAN_POINT ( 'NONE',  ( 0.0000000000000000000, 164.0000000000000853, 0.0000000000000000000 ) ) ;
#7 = EDGE_CURVE ( 'NONE', #210, #233, #75, .T. ) ;
#8 = VECTOR ( 'NONE', #218, 1000.000000000000000 ) ;
#9 = CARTESIAN_POINT ( 'NONE',  ( 0.0000000000000000000, 0.0000000000000000000, 0.0000000000000000000 ) ) ;
#10 = DIRECTION ( 'NONE',  ( 0.0000000000000000000, 0.0000000000000000000, 1.000000000000000000 ) ) ;
#11 = DATE_AND_TIME ( #226, #202 ) ;
#12 = CC_DESIGN_APPROVAL ( #222, ( #105 ) ) ;
#13 = DATE_AND_TIME ( #229, #150 ) ;
#14 = ORIENTED_EDGE ( 'NONE', *, *, #67, .F. ) ;
#15 = PERSON_AND_ORGANIZATION ( #31, #161 ) ;
#16 = ORIENTED_EDGE ( 'NONE', *, *, #32, .T. ) ;
#17 = VERTEX_POINT ( 'NONE', #20 ) ;
#18 = AXIS2_PLACEMENT_3D ( 'NONE', #28, #125, #221 ) ;
#19 = ORIENTED_EDGE ( 'NONE', *, *, #272, .T. ) ;
#20 = CARTESIAN_POINT ( 'NONE',  ( 1.779411799161104416E-14, 0.0000000000000000000, 145.3000000000000114 ) ) ;
#21 = DIRECTION ( 'NONE',  ( 0.0000000000000000000, 0.0000000000000000000, -1.000000000000000000 ) ) ;
#22 = CLOSED_SHELL ( 'NONE', ( #53, #90, #175, #124, #77, #155, #118, #59, #145 ) ) ;
#23 = CIRCLE ( 'NONE', #60, 532.5000000000001137 ) ;
#24 = CARTESIAN_POINT ( 'NONE',  ( -6.031620511734320254E-16, -313.2147824464692576, -4.925191913238795571 ) ) ;
#25 = DIRECTION ( 'NONE',  ( 0.0000000000000000000, 0.0000000000000000000, -1.000000000000000000 ) ) ;
#26 = DIRECTION ( 'NONE',  ( -0.0000000000000000000, -1.000000000000000000, -0.0000000000000000000 ) ) ;
#27 = APPROVAL_PERSON_ORGANIZATION ( #154, #198, #33 ) ;
#28 = CARTESIAN_POINT ( 'NONE',  ( 0.0000000000000000000, 187.0624400566326813, 0.0000000000000000000 ) ) ;
#29 = CARTESIAN_POINT ( 'NONE',  ( 0.0000000000000000000, 187.0624400566326813, -177.4999999999999432 ) ) ;
#30 = CIRCLE ( 'NONE', #209, 145.3000000000000114 ) ;
#31 = PERSON ( 'BELÝRTÝLMEMÝÞ', 'BELÝRTÝLMEMÝÞ', 'BELÝRTÝLMEMÝÞ', ('BELÝRTÝLMEMÝÞ'), ('BELÝRTÝLMEMÝÞ'), ('BELÝRTÝLMEMÝÞ') ) ;
#32 = EDGE_CURVE ( 'NONE', #230, #234, #263, .T. ) ;
#33 = APPROVAL_ROLE ( '' ) ;
#34 = APPROVAL_ROLE ( '' ) ;
#35 = PRODUCT_DEFINITION_SHAPE ( 'NONE', 'NONE',  #189 ) ;
#36 = TOROIDAL_SURFACE ( 'NONE', #214, -4.925191913238795571, 500.3014659890578741 ) ;
#37 = ORIENTED_EDGE ( 'NONE', *, *, #120, .T. ) ;
#38 = CALENDAR_DATE ( 2019, 16, 12 ) ;
#39 = ORIENTED_EDGE ( 'NONE', *, *, #80, .T. ) ;
#40 = VERTEX_POINT ( 'NONE', #91 ) ;
#41 = ORIENTED_EDGE ( 'NONE', *, *, #132, .F. ) ;
#42 = CARTESIAN_POINT ( 'NONE',  ( 0.0000000000000000000, 164.0000000000000853, 0.0000000000000000000 ) ) ;
#43 = EDGE_CURVE ( 'NONE', #87, #230, #305, .T. ) ;
#44 = FACE_OUTER_BOUND ( 'NONE', #114, .T. ) ;
#45 = CARTESIAN_POINT ( 'NONE',  ( 0.0000000000000000000, 0.0000000000000000000, 0.0000000000000000000 ) ) ;
#46 = AXIS2_PLACEMENT_3D ( 'NONE', #2, #96, #192 ) ;
#47 = LINE ( 'NONE', #121, #8 ) ;
#48 = DIRECTION ( 'NONE',  ( 0.0000000000000000000, 0.0000000000000000000, -1.000000000000000000 ) ) ;
#49 = DIRECTION ( 'NONE',  ( -0.0000000000000000000, -1.000000000000000000, -0.0000000000000000000 ) ) ;
#50 = LOCAL_TIME ( 14, 41, 12.00000000000000000, #251 ) ;
#51 = CARTESIAN_POINT ( 'NONE',  ( 145.3000000000000114, 0.0000000000000000000, 0.0000000000000000000 ) ) ;
#52 = DIRECTION ( 'NONE',  ( 0.0000000000000000000, 0.0000000000000000000, -1.000000000000000000 ) ) ;
#53 = ADVANCED_FACE ( 'NONE', ( #163 ), #36, .F. ) ;
#54 = AXIS2_PLACEMENT_3D ( 'NONE', #6, #101, #196 ) ;
#55 = UNCERTAINTY_MEASURE_WITH_UNIT (LENGTH_MEASURE( 1.000000000000000082E-05 ), #245, 'distance_accuracy_value', 'NONE');
#56 = APPLICATION_PROTOCOL_DEFINITION ( 'international standard', 'config_control_design', 1994, #127 ) ;
#57 = DATE_TIME_ROLE ( 'creation_date' ) ;
#58 = PERSON_AND_ORGANIZATION ( #31, #161 ) ;
#59 = ADVANCED_FACE ( 'NONE', ( #44 ), #76, .T. ) ;
#60 = AXIS2_PLACEMENT_3D ( 'NONE', #24, #119, #217 ) ;
#61 = EDGE_LOOP ( 'NONE', ( #277, #185, #37, #232 ) ) ;
#62 = SHAPE_DEFINITION_REPRESENTATION ( #35, #285 ) ;
#63 = ORIENTED_EDGE ( 'NONE', *, *, #7, .F. ) ;
#64 = ORIENTED_EDGE ( 'NONE', *, *, #132, .T. ) ;
#65 = ORIENTED_EDGE ( 'NONE', *, *, #148, .F. ) ;
#66 = CC_DESIGN_APPROVAL ( #198, ( #189 ) ) ;
#67 = EDGE_CURVE ( 'NONE', #89, #233, #117, .T. ) ;
#68 = DIRECTION ( 'NONE',  ( 0.0000000000000000000, 0.0000000000000000000, 1.000000000000000000 ) ) ;
#69 = DIRECTION ( 'NONE',  ( 0.0000000000000000000, 0.0000000000000000000, 1.000000000000000000 ) ) ;
#70 = CARTESIAN_POINT ( 'NONE',  ( -6.323862827469028904E-14, 187.0624400566326813, 0.0000000000000000000 ) ) ;
#71 = TOROIDAL_SURFACE ( 'NONE', #246, -4.925191913238795571, 500.3014659890578741 ) ;
#72 = CYLINDRICAL_SURFACE ( 'NONE', #259, 177.5000000000000000 ) ;
#73 = CARTESIAN_POINT ( 'NONE',  ( 1.779411799161104101E-14, 0.0000000000000000000, 145.2999999999999829 ) ) ;
#74 = FACE_OUTER_BOUND ( 'NONE', #181, .T. ) ;
#75 = CIRCLE ( 'NONE', #92, 145.2999999999999261 ) ;
#76 = TOROIDAL_SURFACE ( 'NONE', #250, -4.925191913238795571, 532.5000000000001137 ) ;
#77 = ADVANCED_FACE ( 'NONE', ( #165 ), #257, .F. ) ;
#78 = CYLINDRICAL_SURFACE ( 'NONE', #269, 177.5000000000000000 ) ;
#79 = DIRECTION ( 'NONE',  ( -0.0000000000000000000, -1.000000000000000000, -0.0000000000000000000 ) ) ;
#80 = EDGE_CURVE ( 'NONE', #87, #234, #23, .T. ) ;
#81 = COORDINATED_UNIVERSAL_TIME_OFFSET ( 3, 0, .AHEAD. ) ;
#82 = PERSON_AND_ORGANIZATION ( #31, #161 ) ;
#83 = ORIENTED_EDGE ( 'NONE', *, *, #109, .T. ) ;
#84 = EDGE_CURVE ( 'NONE', #89, #210, #237, .T. ) ;
#85 = CALENDAR_DATE ( 2019, 16, 12 ) ;
#86 = VECTOR ( 'NONE', #26, 1000.000000000000000 ) ;
#87 = VERTEX_POINT ( 'NONE', #284 ) ;
#88 = ORIENTED_EDGE ( 'NONE', *, *, #80, .F. ) ;
#89 = VERTEX_POINT ( 'NONE', #70 ) ;
#90 = ADVANCED_FACE ( 'NONE', ( #166 ), #275, .T. ) ;
#91 = CARTESIAN_POINT ( 'NONE',  ( 0.0000000000000000000, 0.0000000000000000000, -145.3000000000000114 ) ) ;
#92 = AXIS2_PLACEMENT_3D ( 'NONE', #42, #141, #235 ) ;
#93 = LOCAL_TIME ( 14, 41, 12.00000000000000000, #299 ) ;
#94 = DIRECTION ( 'NONE',  ( -0.0000000000000000000, -1.000000000000000000, -0.0000000000000000000 ) ) ;
#95 = DIRECTION ( 'NONE',  ( 1.000000000000000000, 0.0000000000000000000, -1.224646799147353207E-16 ) ) ;
#96 = DIRECTION ( 'NONE',  ( -0.0000000000000000000, -1.000000000000000000, -0.0000000000000000000 ) ) ;
#97 = CIRCLE ( 'NONE', #138, 177.5000000000000284 ) ;
#98 = DIRECTION ( 'NONE',  ( -0.0000000000000000000, -1.000000000000000000, -0.0000000000000000000 ) ) ;
#99 = DIRECTION ( 'NONE',  ( 0.0000000000000000000, 0.0000000000000000000, -1.000000000000000000 ) ) ;
#100 = EDGE_CURVE ( 'NONE', #234, #298, #47, .T. ) ;
#101 = DIRECTION ( 'NONE',  ( -0.0000000000000000000, -1.000000000000000000, -0.0000000000000000000 ) ) ;
#102 = AXIS2_PLACEMENT_3D ( 'NONE', #1, #95, #191 ) ;
#103 = DIRECTION ( 'NONE',  ( -0.0000000000000000000, -1.000000000000000000, -0.0000000000000000000 ) ) ;
#104 = DIRECTION ( 'NONE',  ( 1.000000000000000000, 0.0000000000000000000, 0.0000000000000000000 ) ) ;
#105 = PRODUCT_DEFINITION_FORMATION_WITH_SPECIFIED_SOURCE ( 'HERHANGÝ', '', #227, .NOT_KNOWN. ) ;
#106 = APPROVAL_DATE_TIME ( #11, #198 ) ;
#107 = APPROVAL_DATE_TIME ( #13, #222 ) ;
#108 = ORIENTED_EDGE ( 'NONE', *, *, #137, .F. ) ;
#109 = EDGE_CURVE ( 'NONE', #208, #298, #182, .T. ) ;
#110 = APPROVAL_STATUS ( 'not_yet_approved' ) ;
#111 = ORIENTED_EDGE ( 'NONE', *, *, #100, .T. ) ;
#112 = VECTOR ( 'NONE', #290, 1000.000000000000000 ) ;
#113 = ORIENTED_EDGE ( 'NONE', *, *, #148, .T. ) ;
#114 = EDGE_LOOP ( 'NONE', ( #88, #186, #253 ) ) ;
#115 = APPLICATION_CONTEXT ( 'configuration controlled 3d designs of mechanical parts and assemblies' ) ;
#116 = CARTESIAN_POINT ( 'NONE',  ( 0.0000000000000000000, 187.0624400566326813, 0.0000000000000000000 ) ) ;
#117 = CIRCLE ( 'NONE', #291, 500.3014659890578741 ) ;
#118 = ADVANCED_FACE ( 'NONE', ( #287 ), #72, .T. ) ;
#119 = DIRECTION ( 'NONE',  ( 1.000000000000000000, 0.0000000000000000000, -1.224646799147353207E-16 ) ) ;
#120 = EDGE_CURVE ( 'NONE', #230, #208, #147, .T. ) ;
#121 = CARTESIAN_POINT ( 'NONE',  ( 2.173748068486551720E-14, 0.0000000000000000000, 177.5000000000000000 ) ) ;
#122 = FACE_OUTER_BOUND ( 'NONE', #278, .T. ) ;
#123 = LINE ( 'NONE', #195, #112 ) ;
#124 = ADVANCED_FACE ( 'NONE', ( #122 ), #219, .F. ) ;
#125 = DIRECTION ( 'NONE',  ( -0.0000000000000000000, -1.000000000000000000, -0.0000000000000000000 ) ) ;
#126 = CARTESIAN_POINT ( 'NONE',  ( 0.0000000000000000000, 164.0000000000000853, -145.2999999999999261 ) ) ;
#127 = APPLICATION_CONTEXT ( 'configuration controlled 3d designs of mechanical parts and assemblies' ) ;
#128 = COORDINATED_UNIVERSAL_TIME_OFFSET ( 3, 0, .AHEAD. ) ;
#129 = AXIS2_PLACEMENT_3D ( 'NONE', #116, #212, #304 ) ;
#130 = CC_DESIGN_SECURITY_CLASSIFICATION ( #187, ( #105 ) ) ;
#131 = COORDINATED_UNIVERSAL_TIME_OFFSET ( 3, 0, .AHEAD. ) ;
#132 = EDGE_CURVE ( 'NONE', #210, #17, #288, .T. ) ;
#133 = ORIENTED_EDGE ( 'NONE', *, *, #84, .T. ) ;
#134 = DATE_AND_TIME ( #38, #50 ) ;
#135 = ORIENTED_EDGE ( 'NONE', *, *, #32, .F. ) ;
#136 = ORIENTED_EDGE ( 'NONE', *, *, #84, .F. ) ;
#137 = EDGE_CURVE ( 'NONE', #17, #40, #30, .T. ) ;
#138 = AXIS2_PLACEMENT_3D ( 'NONE', #9, #103, #199 ) ;
#139 = EDGE_LOOP ( 'NONE', ( #41, #303, #113, #19 ) ) ;
#140 = MANIFOLD_SOLID_BREP ( 'Döndür1', #22 ) ;
#141 = DIRECTION ( 'NONE',  ( -0.0000000000000000000, -1.000000000000000000, -0.0000000000000000000 ) ) ;
#142 = CARTESIAN_POINT ( 'NONE',  ( 0.0000000000000000000, -313.2147824464692576, 0.0000000000000000000 ) ) ;
#143 = DIRECTION ( 'NONE',  ( -0.0000000000000000000, -1.000000000000000000, -0.0000000000000000000 ) ) ;
#144 = AXIS2_PLACEMENT_3D ( 'NONE', #146, #239, #25 ) ;
#145 = ADVANCED_FACE ( 'NONE', ( #241 ), #71, .F. ) ;
#146 = CARTESIAN_POINT ( 'NONE',  ( 0.0000000000000000000, -313.2147824464692576, 0.0000000000000000000 ) ) ;
#147 = LINE ( 'NONE', #240, #86 ) ;
#148 = EDGE_CURVE ( 'NONE', #233, #40, #123, .T. ) ;
#149 = DIRECTION ( 'NONE',  ( 0.0000000000000000000, 0.0000000000000000000, -1.000000000000000000 ) ) ;
#150 = LOCAL_TIME ( 14, 41, 12.00000000000000000, #131 ) ;
#151 = DIRECTION ( 'NONE',  ( 0.0000000000000000000, -1.000000000000000000, -0.0000000000000000000 ) ) ;
#152 = CARTESIAN_POINT ( 'NONE',  ( 0.0000000000000000000, 0.0000000000000000000, -177.5000000000000284 ) ) ;
#153 = CIRCLE ( 'NONE', #18, 177.4999999999999432 ) ;
#154 = PERSON_AND_ORGANIZATION ( #31, #161 ) ;
#155 = ADVANCED_FACE ( 'NONE', ( #74, #170 ), #264, .T. ) ;
#156 = PERSON_AND_ORGANIZATION ( #31, #161 ) ;
#157 = PERSON_AND_ORGANIZATION_ROLE ( 'classification_officer' ) ;
#158 = EDGE_LOOP ( 'NONE', ( #160, #108 ) ) ;
#159 = ORIENTED_EDGE ( 'NONE', *, *, #262, .T. ) ;
#160 = ORIENTED_EDGE ( 'NONE', *, *, #272, .F. ) ;
#161 = ORGANIZATION ( 'BELÝRTÝLMEMÝÞ', 'BELÝRTÝLMEMÝÞ', '' ) ;
#162 = EDGE_LOOP ( 'NONE', ( #136, #211, #274 ) ) ;
#163 = FACE_OUTER_BOUND ( 'NONE', #254, .T. ) ;
#164 = EDGE_CURVE ( 'NONE', #234, #230, #153, .T. ) ;
#165 = FACE_OUTER_BOUND ( 'NONE', #139, .T. ) ;
#166 = FACE_OUTER_BOUND ( 'NONE', #255, .T. ) ;
#167 = AXIS2_PLACEMENT_3D ( 'NONE', #4, #98, #194 ) ;
#168 = CARTESIAN_POINT ( 'NONE',  ( 0.0000000000000000000, 0.0000000000000000000, 0.0000000000000000000 ) ) ;
#169 = DIRECTION ( 'NONE',  ( -0.0000000000000000000, -1.000000000000000000, -0.0000000000000000000 ) ) ;
#170 = FACE_BOUND ( 'NONE', #158, .T. ) ;
#171 = AXIS2_PLACEMENT_3D ( 'NONE', #188, #281, #68 ) ;
#172 = EDGE_CURVE ( 'NONE', #233, #210, #193, .T. ) ;
#173 = CARTESIAN_POINT ( 'NONE',  ( 0.0000000000000000000, 0.0000000000000000000, 0.0000000000000000000 ) ) ;
#174 = DIRECTION ( 'NONE',  ( 0.0000000000000000000, 0.0000000000000000000, -1.000000000000000000 ) ) ;
#175 = ADVANCED_FACE ( 'NONE', ( #292 ), #78, .T. ) ;
#176 = AXIS2_PLACEMENT_3D ( 'NONE', #293, #79, #174 ) ;
#177 = PERSON_AND_ORGANIZATION ( #31, #161 ) ;
#178 = CC_DESIGN_PERSON_AND_ORGANIZATION_ASSIGNMENT ( #177, #270, ( #227 ) ) ;
#179 = CALENDAR_DATE ( 2019, 16, 12 ) ;
#180 = PERSON_AND_ORGANIZATION_ROLE ( 'design_supplier' ) ;
#181 = EDGE_LOOP ( 'NONE', ( #83, #159 ) ) ;
#182 = CIRCLE ( 'NONE', #46, 177.5000000000000284 ) ;
#183 = DATE_AND_TIME ( #85, #93 ) ;
#184 = ORIENTED_EDGE ( 'NONE', *, *, #120, .F. ) ;
#185 = ORIENTED_EDGE ( 'NONE', *, *, #164, .T. ) ;
#186 = ORIENTED_EDGE ( 'NONE', *, *, #43, .T. ) ;
#187 = SECURITY_CLASSIFICATION ( '', '', #273 ) ;
#188 = CARTESIAN_POINT ( 'NONE',  ( 0.0000000000000000000, -313.2147824464692576, 4.925191913238795571 ) ) ;
#189 = PRODUCT_DEFINITION ( 'BÝLÝNMEYEN', '', #105, #215 ) ;
#190 = DIRECTION ( 'NONE',  ( 0.0000000000000000000, 0.0000000000000000000, -1.000000000000000000 ) ) ;
#191 = DIRECTION ( 'NONE',  ( -1.224646799147353454E-16, 0.0000000000000000000, -1.000000000000000000 ) ) ;
#192 = DIRECTION ( 'NONE',  ( 0.0000000000000000000, 0.0000000000000000000, -1.000000000000000000 ) ) ;
#193 = CIRCLE ( 'NONE', #54, 145.2999999999999261 ) ;
#194 = DIRECTION ( 'NONE',  ( 0.0000000000000000000, 0.0000000000000000000, -1.000000000000000000 ) ) ;
#195 = CARTESIAN_POINT ( 'NONE',  ( 0.0000000000000000000, 0.0000000000000000000, -145.2999999999999829 ) ) ;
#196 = DIRECTION ( 'NONE',  ( 0.0000000000000000000, 0.0000000000000000000, -1.000000000000000000 ) ) ;
#197 = AXIS2_PLACEMENT_3D ( 'NONE', #45, #143, #238 ) ;
#198 = APPROVAL ( #247, 'BELÝRTÝLMEMÝÞ' ) ;
#199 = DIRECTION ( 'NONE',  ( 0.0000000000000000000, 0.0000000000000000000, -1.000000000000000000 ) ) ;
#200 =( NAMED_UNIT ( * ) SI_UNIT ( $, .STERADIAN. ) SOLID_ANGLE_UNIT ( ) );
#201 = MECHANICAL_CONTEXT ( 'NONE', #115, 'mechanical' ) ;
#202 = LOCAL_TIME ( 14, 41, 12.00000000000000000, #128 ) ;
#203 = PERSON_AND_ORGANIZATION ( #31, #161 ) ;
#204 = PERSON_AND_ORGANIZATION ( #31, #161 ) ;
#205 = ORIENTED_EDGE ( 'NONE', *, *, #43, .F. ) ;
#206 = CC_DESIGN_PERSON_AND_ORGANIZATION_ASSIGNMENT ( #203, #295, ( #189 ) ) ;
#207 = APPROVAL_ROLE ( '' ) ;
#208 = VERTEX_POINT ( 'NONE', #152 ) ;
#209 = AXIS2_PLACEMENT_3D ( 'NONE', #261, #49, #149 ) ;
#210 = VERTEX_POINT ( 'NONE', #244 ) ;
#211 = ORIENTED_EDGE ( 'NONE', *, *, #67, .T. ) ;
#212 = DIRECTION ( 'NONE',  ( -0.0000000000000000000, -1.000000000000000000, -0.0000000000000000000 ) ) ;
#213 = CC_DESIGN_DATE_AND_TIME_ASSIGNMENT ( #271, #57, ( #189 ) ) ;
#214 = AXIS2_PLACEMENT_3D ( 'NONE', #142, #236, #21 ) ;
#215 = DESIGN_CONTEXT ( 'detailed design', #127, 'design' ) ;
#216 = CARTESIAN_POINT ( 'NONE',  ( 0.0000000000000000000, -313.2147824464692576, 4.925191913238795571 ) ) ;
#217 = DIRECTION ( 'NONE',  ( -1.224646799147353207E-16, 0.0000000000000000000, -1.000000000000000000 ) ) ;
#218 = DIRECTION ( 'NONE',  ( -0.0000000000000000000, -1.000000000000000000, -0.0000000000000000000 ) ) ;
#219 = CYLINDRICAL_SURFACE ( 'NONE', #167, 145.2999999999999829 ) ;
#220 = CARTESIAN_POINT ( 'NONE',  ( 0.0000000000000000000, -313.2147824464692576, 0.0000000000000000000 ) ) ;
#221 = DIRECTION ( 'NONE',  ( 0.0000000000000000000, 0.0000000000000000000, -1.000000000000000000 ) ) ;
#222 = APPROVAL ( #248, 'BELÝRTÝLMEMÝÞ' ) ;
#223 = CARTESIAN_POINT ( 'NONE',  ( 2.173748068486551404E-14, 187.0624400566326813, 177.4999999999999432 ) ) ;
#224 =( NAMED_UNIT ( * ) PLANE_ANGLE_UNIT ( ) SI_UNIT ( $, .RADIAN. ) );
#225 = CARTESIAN_POINT ( 'NONE',  ( 0.0000000000000000000, 0.0000000000000000000, 0.0000000000000000000 ) ) ;
#226 = CALENDAR_DATE ( 2019, 16, 12 ) ;
#227 = PRODUCT ( 'End Cap SDR11_001 117 0140 0355', 'End Cap SDR11_001 117 0140 0355', '', ( #201 ) ) ;
#228 = APPROVAL_PERSON_ORGANIZATION ( #15, #296, #207 ) ;
#229 = CALENDAR_DATE ( 2019, 16, 12 ) ;
#230 = VERTEX_POINT ( 'NONE', #29 ) ;
#231 = DATE_TIME_ROLE ( 'classification_date' ) ;
#232 = ORIENTED_EDGE ( 'NONE', *, *, #262, .F. ) ;
#233 = VERTEX_POINT ( 'NONE', #126 ) ;
#234 = VERTEX_POINT ( 'NONE', #223 ) ;
#235 = DIRECTION ( 'NONE',  ( 0.0000000000000000000, 0.0000000000000000000, -1.000000000000000000 ) ) ;
#236 = DIRECTION ( 'NONE',  ( -0.0000000000000000000, -1.000000000000000000, -0.0000000000000000000 ) ) ;
#237 = CIRCLE ( 'NONE', #102, 500.3014659890578741 ) ;
#238 = DIRECTION ( 'NONE',  ( 0.0000000000000000000, 0.0000000000000000000, -1.000000000000000000 ) ) ;
#239 = DIRECTION ( 'NONE',  ( -0.0000000000000000000, -1.000000000000000000, -0.0000000000000000000 ) ) ;
#240 = CARTESIAN_POINT ( 'NONE',  ( 0.0000000000000000000, 0.0000000000000000000, -177.5000000000000000 ) ) ;
#241 = FACE_OUTER_BOUND ( 'NONE', #162, .T. ) ;
#242 = LOCAL_TIME ( 14, 41, 12.00000000000000000, #81 ) ;
#243 = DIRECTION ( 'NONE',  ( 0.0000000000000000000, 0.0000000000000000000, -1.000000000000000000 ) ) ;
#244 = CARTESIAN_POINT ( 'NONE',  ( 1.779411799161103785E-14, 164.0000000000000853, 145.2999999999999261 ) ) ;
#245 =( LENGTH_UNIT ( ) NAMED_UNIT ( * ) SI_UNIT ( .MILLI., .METRE. ) );
#246 = AXIS2_PLACEMENT_3D ( 'NONE', #220, #5, #99 ) ;
#247 = APPROVAL_STATUS ( 'not_yet_approved' ) ;
#248 = APPROVAL_STATUS ( 'not_yet_approved' ) ;
#249 = ORIENTED_EDGE ( 'NONE', *, *, #7, .T. ) ;
#250 = AXIS2_PLACEMENT_3D ( 'NONE', #306, #94, #190 ) ;
#251 = COORDINATED_UNIVERSAL_TIME_OFFSET ( 3, 0, .AHEAD. ) ;
#252 = CC_DESIGN_PERSON_AND_ORGANIZATION_ASSIGNMENT ( #204, #297, ( #105 ) ) ;
#253 = ORIENTED_EDGE ( 'NONE', *, *, #164, .F. ) ;
#254 = EDGE_LOOP ( 'NONE', ( #14, #133, #249 ) ) ;
#255 = EDGE_LOOP ( 'NONE', ( #205, #39, #135 ) ) ;
#256 =( GEOMETRIC_REPRESENTATION_CONTEXT ( 3 ) GLOBAL_UNCERTAINTY_ASSIGNED_CONTEXT ( ( #55 ) ) GLOBAL_UNIT_ASSIGNED_CONTEXT ( ( #245, #224, #200 ) ) REPRESENTATION_CONTEXT ( 'NONE', 'WORKASPACE' ) );
#257 = CYLINDRICAL_SURFACE ( 'NONE', #197, 145.2999999999999829 ) ;
#258 = CC_DESIGN_PERSON_AND_ORGANIZATION_ASSIGNMENT ( #82, #180, ( #105 ) ) ;
#259 = AXIS2_PLACEMENT_3D ( 'NONE', #168, #260, #48 ) ;
#260 = DIRECTION ( 'NONE',  ( -0.0000000000000000000, -1.000000000000000000, -0.0000000000000000000 ) ) ;
#261 = CARTESIAN_POINT ( 'NONE',  ( 0.0000000000000000000, 0.0000000000000000000, 0.0000000000000000000 ) ) ;
#262 = EDGE_CURVE ( 'NONE', #298, #208, #97, .T. ) ;
#263 = CIRCLE ( 'NONE', #129, 177.4999999999999432 ) ;
#264 = PLANE ( 'NONE',  #286 ) ;
#265 = CC_DESIGN_APPROVAL ( #296, ( #187 ) ) ;
#266 = DIRECTION ( 'NONE',  ( -0.0000000000000000000, -1.000000000000000000, -0.0000000000000000000 ) ) ;
#267 = CARTESIAN_POINT ( 'NONE',  ( 2.173748068486552351E-14, 0.0000000000000000000, 177.5000000000000284 ) ) ;
#268 = APPLICATION_PROTOCOL_DEFINITION ( 'international standard', 'config_control_design', 1994, #115 ) ;
#269 = AXIS2_PLACEMENT_3D ( 'NONE', #173, #266, #52 ) ;
#270 = PERSON_AND_ORGANIZATION_ROLE ( 'design_owner' ) ;
#271 = DATE_AND_TIME ( #179, #242 ) ;
#272 = EDGE_CURVE ( 'NONE', #40, #17, #3, .T. ) ;
#273 = SECURITY_CLASSIFICATION_LEVEL ( 'unclassified' ) ;
#274 = ORIENTED_EDGE ( 'NONE', *, *, #172, .T. ) ;
#275 = TOROIDAL_SURFACE ( 'NONE', #144, -4.925191913238795571, 532.5000000000001137 ) ;
#276 = APPROVAL_DATE_TIME ( #183, #296 ) ;
#277 = ORIENTED_EDGE ( 'NONE', *, *, #100, .F. ) ;
#278 = EDGE_LOOP ( 'NONE', ( #63, #64, #279, #65 ) ) ;
#279 = ORIENTED_EDGE ( 'NONE', *, *, #137, .T. ) ;
#280 = APPROVAL_PERSON_ORGANIZATION ( #156, #222, #34 ) ;
#281 = DIRECTION ( 'NONE',  ( -1.000000000000000000, 0.0000000000000000000, 0.0000000000000000000 ) ) ;
#282 = DIRECTION ( 'NONE',  ( -1.000000000000000000, 0.0000000000000000000, 0.0000000000000000000 ) ) ;
#283 = CC_DESIGN_PERSON_AND_ORGANIZATION_ASSIGNMENT ( #58, #157, ( #187 ) ) ;
#284 = CARTESIAN_POINT ( 'NONE',  ( -4.597017211338538800E-14, 219.2624400566326415, 0.0000000000000000000 ) ) ;
#285 = ADVANCED_BREP_SHAPE_REPRESENTATION ( 'End Cap SDR11_001 117 0140 0355', ( #140, #294 ), #256 ) ;
#286 = AXIS2_PLACEMENT_3D ( 'NONE', #51, #151, #243 ) ;
#287 = FACE_OUTER_BOUND ( 'NONE', #61, .T. ) ;
#288 = LINE ( 'NONE', #73, #301 ) ;
#289 = CC_DESIGN_DATE_AND_TIME_ASSIGNMENT ( #134, #231, ( #187 ) ) ;
#290 = DIRECTION ( 'NONE',  ( -0.0000000000000000000, -1.000000000000000000, -0.0000000000000000000 ) ) ;
#291 = AXIS2_PLACEMENT_3D ( 'NONE', #216, #282, #69 ) ;
#292 = FACE_OUTER_BOUND ( 'NONE', #302, .T. ) ;
#293 = CARTESIAN_POINT ( 'NONE',  ( 0.0000000000000000000, 0.0000000000000000000, 0.0000000000000000000 ) ) ;
#294 = AXIS2_PLACEMENT_3D ( 'NONE', #225, #10, #104 ) ;
#295 = PERSON_AND_ORGANIZATION_ROLE ( 'creator' ) ;
#296 = APPROVAL ( #110, 'BELÝRTÝLMEMÝÞ' ) ;
#297 = PERSON_AND_ORGANIZATION_ROLE ( 'creator' ) ;
#298 = VERTEX_POINT ( 'NONE', #267 ) ;
#299 = COORDINATED_UNIVERSAL_TIME_OFFSET ( 3, 0, .AHEAD. ) ;
#300 = ORIENTED_EDGE ( 'NONE', *, *, #109, .F. ) ;
#301 = VECTOR ( 'NONE', #169, 1000.000000000000000 ) ;
#302 = EDGE_LOOP ( 'NONE', ( #16, #111, #300, #184 ) ) ;
#303 = ORIENTED_EDGE ( 'NONE', *, *, #172, .F. ) ;
#304 = DIRECTION ( 'NONE',  ( 0.0000000000000000000, 0.0000000000000000000, -1.000000000000000000 ) ) ;
#305 = CIRCLE ( 'NONE', #171, 532.5000000000001137 ) ;
#306 = CARTESIAN_POINT ( 'NONE',  ( 0.0000000000000000000, -313.2147824464692576, 0.0000000000000000000 ) ) ;
#307 = PRODUCT_RELATED_PRODUCT_CATEGORY ( 'detail', '', ( #227 ) ) ;
ENDSEC;
END-ISO-10303-21;
